ISO-10303-21;
HEADER;
FILE_DESCRIPTION (( 'STEP AP203' ),
    '1' );
FILE_NAME ('Q-ZDWWP-R24-12.7-1064-SHM.STEP',
    '2020-12-22T09:01:50',
    ( '' ),
    ( '' ),
    'SwSTEP 2.0',
    'SolidWorks 2020',
    '' );
FILE_SCHEMA (( 'CONFIG_CONTROL_DESIGN' ));
ENDSEC;

DATA;
#1 =( NAMED_UNIT ( * ) SI_UNIT ( $, .STERADIAN. ) SOLID_ANGLE_UNIT ( ) );
#2 = AXIS2_PLACEMENT_3D ( 'NONE', #99, #46, #231 ) ;
#3 = ORIENTED_EDGE ( 'NONE', *, *, #127, .T. ) ;
#4 = APPROVAL_DATE_TIME ( #112, #187 ) ;
#5 = ORIENTED_EDGE ( 'NONE', *, *, #299, .F. ) ;
#6 = DIRECTION ( 'NONE',  ( -1.000000000000000000, -0.000000000000000000, -0.000000000000000000 ) ) ;
#7 = DIRECTION ( 'NONE',  ( -1.000000000000000000, -0.000000000000000000, -0.000000000000000000 ) ) ;
#8 = CIRCLE ( 'NONE', #183, 12.69999999999999929 ) ;
#9 = FACE_OUTER_BOUND ( 'NONE', #269, .T. ) ;
#10 = APPROVAL_STATUS ( 'not_yet_approved' ) ;
#11 = DIRECTION ( 'NONE',  ( -1.000000000000000000, -0.000000000000000000, -0.000000000000000000 ) ) ;
#12 = PERSON_AND_ORGANIZATION ( #316, #273 ) ;
#13 = DIRECTION ( 'NONE',  ( -1.000000000000000000, -0.000000000000000000, -0.000000000000000000 ) ) ;
#14 = APPROVAL_DATE_TIME ( #64, #164 ) ;
#15 = DIRECTION ( 'NONE',  ( -0.000000000000000000, 0.000000000000000000, 1.000000000000000000 ) ) ;
#16 = DATE_AND_TIME ( #275, #190 ) ;
#17 = MANIFOLD_SOLID_BREP ( 'Ðý×', #233 ) ;
#18 = ORIENTED_EDGE ( 'NONE', *, *, #240, .T. ) ;
#19 = ADVANCED_FACE ( 'NONE', ( #166, #58 ), #108, .F. ) ;
#20 = VERTEX_POINT ( 'NONE', #244 ) ;
#21 = AXIS2_PLACEMENT_3D ( 'NONE', #322, #92, #150 ) ;
#22 = DIRECTION ( 'NONE',  ( -1.000000000000000000, -0.000000000000000000, -0.000000000000000000 ) ) ;
#23 = ORIENTED_EDGE ( 'NONE', *, *, #299, .T. ) ;
#24 = EDGE_CURVE ( 'NONE', #154, #168, #68, .T. ) ;
#25 = VERTEX_POINT ( 'NONE', #235 ) ;
#26 = VECTOR ( 'NONE', #249, 1000.000000000000000 ) ;
#27 = PRODUCT_DEFINITION ( 'UNKNOWN', '', #114, #180 ) ;
#28 = ORIENTED_EDGE ( 'NONE', *, *, #37, .T. ) ;
#29 = LINE ( 'NONE', #210, #45 ) ;
#30 = DIRECTION ( 'NONE',  ( 1.000000000000000000, 0.000000000000000000, 0.000000000000000000 ) ) ;
#31 = CARTESIAN_POINT ( 'NONE',  ( 0.000000000000000000, 0.000000000000000000, 0.000000000000000000 ) ) ;
#32 = ADVANCED_FACE ( 'NONE', ( #317 ), #54, .T. ) ;
#33 = PERSON_AND_ORGANIZATION ( #316, #273 ) ;
#34 = DIRECTION ( 'NONE',  ( -1.000000000000000000, -0.000000000000000000, -0.000000000000000000 ) ) ;
#35 = LINE ( 'NONE', #87, #170 ) ;
#36 = CARTESIAN_POINT ( 'NONE',  ( -1.614212418857619014, 0.000000000000000000, 0.000000000000000000 ) ) ;
#37 = EDGE_CURVE ( 'NONE', #259, #59, #266, .T. ) ;
#38 = LINE ( 'NONE', #247, #121 ) ;
#39 = CIRCLE ( 'NONE', #260, 6.349999999999999645 ) ;
#40 = CC_DESIGN_PERSON_AND_ORGANIZATION_ASSIGNMENT ( #120, #151, ( #114 ) ) ;
#41 = CARTESIAN_POINT ( 'NONE',  ( -1.614212418857619014, 0.000000000000000000, 0.000000000000000000 ) ) ;
#42 = APPROVAL ( #10, 'UNSPECIFIED' ) ;
#43 = PLANE ( 'NONE',  #155 ) ;
#44 = PERSON_AND_ORGANIZATION ( #316, #273 ) ;
#45 = VECTOR ( 'NONE', #6, 1000.000000000000000 ) ;
#46 = DIRECTION ( 'NONE',  ( 1.000000000000000000, 0.000000000000000000, 0.000000000000000000 ) ) ;
#47 = ADVANCED_FACE ( 'NONE', ( #192 ), #105, .F. ) ;
#48 = CARTESIAN_POINT ( 'NONE',  ( -1.614212418857619014, 0.000000000000000000, 0.000000000000000000 ) ) ;
#49 = VERTEX_POINT ( 'NONE', #109 ) ;
#50 = ORIENTED_EDGE ( 'NONE', *, *, #153, .T. ) ;
#51 = AXIS2_PLACEMENT_3D ( 'NONE', #332, #204, #307 ) ;
#52 = ORIENTED_EDGE ( 'NONE', *, *, #82, .T. ) ;
#53 = ORIENTED_EDGE ( 'NONE', *, *, #37, .F. ) ;
#54 = CYLINDRICAL_SURFACE ( 'NONE', #85, 12.69999999999999929 ) ;
#55 = AXIS2_PLACEMENT_3D ( 'NONE', #48, #77, #81 ) ;
#56 = ORIENTED_EDGE ( 'NONE', *, *, #57, .F. ) ;
#57 = EDGE_CURVE ( 'NONE', #78, #168, #285, .T. ) ;
#58 = FACE_OUTER_BOUND ( 'NONE', #90, .T. ) ;
#59 = VERTEX_POINT ( 'NONE', #70 ) ;
#60 = CALENDAR_DATE ( 2020, 22, 12 ) ;
#61 = SECURITY_CLASSIFICATION ( '', '', #67 ) ;
#62 = APPROVAL_ROLE ( '' ) ;
#63 = CARTESIAN_POINT ( 'NONE',  ( 3.000000000000000000, 0.000000000000000000, 0.000000000000000000 ) ) ;
#64 = DATE_AND_TIME ( #198, #101 ) ;
#65 = CC_DESIGN_PERSON_AND_ORGANIZATION_ASSIGNMENT ( #215, #245, ( #27 ) ) ;
#66 = DIRECTION ( 'NONE',  ( -1.000000000000000000, -0.000000000000000000, -0.000000000000000000 ) ) ;
#67 = SECURITY_CLASSIFICATION_LEVEL ( 'unclassified' ) ;
#68 = CIRCLE ( 'NONE', #334, 12.69999999999999929 ) ;
#69 = CARTESIAN_POINT ( 'NONE',  ( 3.000000000000000000, 12.69999999999999929, 0.000000000000000000 ) ) ;
#70 = CARTESIAN_POINT ( 'NONE',  ( -1.500000000000000444, 7.776507174585692163E-16, -6.349999999999999645 ) ) ;
#71 = PERSON_AND_ORGANIZATION_ROLE ( 'creator' ) ;
#72 = LOCAL_TIME ( 17, 1, 50.00000000000000000, #194 ) ;
#73 = DIRECTION ( 'NONE',  ( 0.000000000000000000, 0.000000000000000000, 1.000000000000000000 ) ) ;
#74 = ORIENTED_EDGE ( 'NONE', *, *, #288, .T. ) ;
#75 = CARTESIAN_POINT ( 'NONE',  ( -1.500000000000000444, 0.000000000000000000, 6.349999999999999645 ) ) ;
#76 = ORIENTED_EDGE ( 'NONE', *, *, #288, .F. ) ;
#77 = DIRECTION ( 'NONE',  ( -1.000000000000000000, -0.000000000000000000, -0.000000000000000000 ) ) ;
#78 = VERTEX_POINT ( 'NONE', #253 ) ;
#79 = AXIS2_PLACEMENT_3D ( 'NONE', #229, #328, #143 ) ;
#80 = APPROVAL_PERSON_ORGANIZATION ( #33, #187, #290 ) ;
#81 = DIRECTION ( 'NONE',  ( 0.000000000000000000, 0.000000000000000000, 1.000000000000000000 ) ) ;
#82 = EDGE_CURVE ( 'NONE', #306, #154, #149, .T. ) ;
#83 = EDGE_LOOP ( 'NONE', ( #5, #181, #18, #331 ) ) ;
#84 = EDGE_LOOP ( 'NONE', ( #3, #254 ) ) ;
#85 = AXIS2_PLACEMENT_3D ( 'NONE', #36, #88, #335 ) ;
#86 = ORIENTED_EDGE ( 'NONE', *, *, #296, .F. ) ;
#87 = CARTESIAN_POINT ( 'NONE',  ( -1.614212418857619014, 7.776507174585692163E-16, -6.349999999999999645 ) ) ;
#88 = DIRECTION ( 'NONE',  ( -1.000000000000000000, -0.000000000000000000, -0.000000000000000000 ) ) ;
#89 = COORDINATED_UNIVERSAL_TIME_OFFSET ( 8, 0, .AHEAD. ) ;
#90 = EDGE_LOOP ( 'NONE', ( #144, #74 ) ) ;
#91 =( GEOMETRIC_REPRESENTATION_CONTEXT ( 3 ) GLOBAL_UNCERTAINTY_ASSIGNED_CONTEXT ( ( #301 ) ) GLOBAL_UNIT_ASSIGNED_CONTEXT ( ( #313, #135, #1 ) ) REPRESENTATION_CONTEXT ( 'NONE', 'WORKASPACE' ) );
#92 = DIRECTION ( 'NONE',  ( -1.000000000000000000, -0.000000000000000000, -0.000000000000000000 ) ) ;
#93 = ADVANCED_FACE ( 'NONE', ( #227 ), #43, .F. ) ;
#94 = DIRECTION ( 'NONE',  ( -1.000000000000000000, -0.000000000000000000, -0.000000000000000000 ) ) ;
#95 = CARTESIAN_POINT ( 'NONE',  ( -1.500000000000000444, 0.000000000000000000, 0.000000000000000000 ) ) ;
#96 = CIRCLE ( 'NONE', #257, 12.69999999999999929 ) ;
#97 = CARTESIAN_POINT ( 'NONE',  ( 1.500000000000000888, 0.000000000000000000, 0.000000000000000000 ) ) ;
#98 = COORDINATED_UNIVERSAL_TIME_OFFSET ( 8, 0, .AHEAD. ) ;
#99 = CARTESIAN_POINT ( 'NONE',  ( -1.500000000000000444, 6.349999999999999645, 0.000000000000000000 ) ) ;
#100 = APPROVAL_ROLE ( '' ) ;
#101 = LOCAL_TIME ( 17, 1, 50.00000000000000000, #220 ) ;
#102 = CC_DESIGN_PERSON_AND_ORGANIZATION_ASSIGNMENT ( #12, #71, ( #114 ) ) ;
#103 = PRODUCT_DEFINITION_SHAPE ( 'NONE', 'NONE',  #27 ) ;
#104 = ORIENTED_EDGE ( 'NONE', *, *, #159, .T. ) ;
#105 = CYLINDRICAL_SURFACE ( 'NONE', #113, 6.349999999999999645 ) ;
#106 = VERTEX_POINT ( 'NONE', #274 ) ;
#107 = CIRCLE ( 'NONE', #21, 6.349999999999999645 ) ;
#108 = PLANE ( 'NONE',  #131 ) ;
#109 = CARTESIAN_POINT ( 'NONE',  ( 1.500000000000000888, 7.776507174585692163E-16, -6.349999999999999645 ) ) ;
#110 = CARTESIAN_POINT ( 'NONE',  ( 3.000000000000000000, 0.000000000000000000, 12.69999999999999929 ) ) ;
#111 = DIRECTION ( 'NONE',  ( 0.000000000000000000, 0.000000000000000000, 1.000000000000000000 ) ) ;
#112 = DATE_AND_TIME ( #238, #72 ) ;
#113 = AXIS2_PLACEMENT_3D ( 'NONE', #209, #141, #239 ) ;
#114 = PRODUCT_DEFINITION_FORMATION_WITH_SPECIFIED_SOURCE ( 'ANY', '', #326, .NOT_KNOWN. ) ;
#115 = FACE_OUTER_BOUND ( 'NONE', #262, .T. ) ;
#116 = COORDINATED_UNIVERSAL_TIME_OFFSET ( 8, 0, .AHEAD. ) ;
#117 = CARTESIAN_POINT ( 'NONE',  ( -2.999999999999999556, 0.000000000000000000, 0.000000000000000000 ) ) ;
#118 = EDGE_CURVE ( 'NONE', #106, #237, #129, .T. ) ;
#119 = DIRECTION ( 'NONE',  ( 0.000000000000000000, 0.000000000000000000, -1.000000000000000000 ) ) ;
#120 = PERSON_AND_ORGANIZATION ( #316, #273 ) ;
#121 = VECTOR ( 'NONE', #11, 1000.000000000000000 ) ;
#122 = DIRECTION ( 'NONE',  ( -0.000000000000000000, 0.000000000000000000, 1.000000000000000000 ) ) ;
#123 = PERSON_AND_ORGANIZATION_ROLE ( 'classification_officer' ) ;
#124 = CYLINDRICAL_SURFACE ( 'NONE', #55, 6.349999999999999645 ) ;
#125 = SHAPE_DEFINITION_REPRESENTATION ( #103, #305 ) ;
#126 = CARTESIAN_POINT ( 'NONE',  ( -2.999999999999999556, 7.776507174585692163E-16, -6.349999999999999645 ) ) ;
#127 = EDGE_CURVE ( 'NONE', #25, #286, #107, .T. ) ;
#128 = ORIENTED_EDGE ( 'NONE', *, *, #185, .F. ) ;
#129 = CIRCLE ( 'NONE', #178, 6.349999999999999645 ) ;
#130 = ORIENTED_EDGE ( 'NONE', *, *, #213, .T. ) ;
#131 = AXIS2_PLACEMENT_3D ( 'NONE', #264, #30, #136 ) ;
#132 = EDGE_LOOP ( 'NONE', ( #56, #208, #52, #76 ) ) ;
#133 = PRODUCT_RELATED_PRODUCT_CATEGORY ( 'detail', '', ( #326 ) ) ;
#134 = ORIENTED_EDGE ( 'NONE', *, *, #142, .T. ) ;
#135 =( NAMED_UNIT ( * ) PLANE_ANGLE_UNIT ( ) SI_UNIT ( $, .RADIAN. ) );
#136 = DIRECTION ( 'NONE',  ( 0.000000000000000000, 0.000000000000000000, -1.000000000000000000 ) ) ;
#137 = MECHANICAL_CONTEXT ( 'NONE', #224, 'mechanical' ) ;
#138 = CARTESIAN_POINT ( 'NONE',  ( -3.000000000000000000, 0.000000000000000000, 0.000000000000000000 ) ) ;
#139 = APPROVAL_STATUS ( 'not_yet_approved' ) ;
#140 = LOCAL_TIME ( 17, 1, 50.00000000000000000, #116 ) ;
#141 = DIRECTION ( 'NONE',  ( -1.000000000000000000, -0.000000000000000000, -0.000000000000000000 ) ) ;
#142 = EDGE_CURVE ( 'NONE', #49, #20, #193, .T. ) ;
#143 = DIRECTION ( 'NONE',  ( 0.000000000000000000, 0.000000000000000000, 1.000000000000000000 ) ) ;
#144 = ORIENTED_EDGE ( 'NONE', *, *, #24, .T. ) ;
#145 = CARTESIAN_POINT ( 'NONE',  ( -3.000000000000000000, 1.555301434917138433E-15, -12.69999999999999929 ) ) ;
#146 = DATE_TIME_ROLE ( 'classification_date' ) ;
#147 = ADVANCED_FACE ( 'NONE', ( #173 ), #271, .T. ) ;
#148 = CARTESIAN_POINT ( 'NONE',  ( -1.614212418857619014, 0.000000000000000000, 12.69999999999999929 ) ) ;
#149 = LINE ( 'NONE', #148, #26 ) ;
#150 = DIRECTION ( 'NONE',  ( 0.000000000000000000, 0.000000000000000000, 1.000000000000000000 ) ) ;
#151 = PERSON_AND_ORGANIZATION_ROLE ( 'design_supplier' ) ;
#152 = AXIS2_PLACEMENT_3D ( 'NONE', #31, #287, #263 ) ;
#153 = EDGE_CURVE ( 'NONE', #20, #49, #39, .T. ) ;
#154 = VERTEX_POINT ( 'NONE', #248 ) ;
#155 = AXIS2_PLACEMENT_3D ( 'NONE', #300, #201, #122 ) ;
#156 = ORIENTED_EDGE ( 'NONE', *, *, #159, .F. ) ;
#157 = CARTESIAN_POINT ( 'NONE',  ( 3.000000000000000000, 0.000000000000000000, 0.000000000000000000 ) ) ;
#158 = ORIENTED_EDGE ( 'NONE', *, *, #261, .F. ) ;
#159 = EDGE_CURVE ( 'NONE', #306, #78, #96, .T. ) ;
#160 = CIRCLE ( 'NONE', #310, 6.349999999999999645 ) ;
#161 = ORIENTED_EDGE ( 'NONE', *, *, #202, .T. ) ;
#162 = APPLICATION_PROTOCOL_DEFINITION ( 'international standard', 'config_control_design', 1994, #224 ) ;
#163 = VECTOR ( 'NONE', #22, 1000.000000000000000 ) ;
#164 = APPROVAL ( #293, 'UNSPECIFIED' ) ;
#165 = ORIENTED_EDGE ( 'NONE', *, *, #296, .T. ) ;
#166 = FACE_BOUND ( 'NONE', #329, .T. ) ;
#167 = PERSON_AND_ORGANIZATION_ROLE ( 'design_owner' ) ;
#168 = VERTEX_POINT ( 'NONE', #145 ) ;
#169 = DATE_AND_TIME ( #60, #251 ) ;
#170 = VECTOR ( 'NONE', #241, 1000.000000000000000 ) ;
#171 = CC_DESIGN_APPROVAL ( #42, ( #61 ) ) ;
#172 = DIRECTION ( 'NONE',  ( 0.000000000000000000, 0.000000000000000000, 1.000000000000000000 ) ) ;
#173 = FACE_OUTER_BOUND ( 'NONE', #277, .T. ) ;
#174 = CARTESIAN_POINT ( 'NONE',  ( 1.500000000000000888, 0.000000000000000000, 0.000000000000000000 ) ) ;
#175 = AXIS2_PLACEMENT_3D ( 'NONE', #95, #270, #119 ) ;
#176 = DIRECTION ( 'NONE',  ( 0.000000000000000000, 0.000000000000000000, 1.000000000000000000 ) ) ;
#177 = DIRECTION ( 'NONE',  ( 0.000000000000000000, 0.000000000000000000, 1.000000000000000000 ) ) ;
#178 = AXIS2_PLACEMENT_3D ( 'NONE', #117, #94, #111 ) ;
#179 = APPROVAL_PERSON_ORGANIZATION ( #319, #164, #62 ) ;
#180 = DESIGN_CONTEXT ( 'detailed design', #203, 'design' ) ;
#181 = ORIENTED_EDGE ( 'NONE', *, *, #185, .T. ) ;
#182 = FACE_OUTER_BOUND ( 'NONE', #302, .T. ) ;
#183 = AXIS2_PLACEMENT_3D ( 'NONE', #157, #228, #73 ) ;
#184 = ORIENTED_EDGE ( 'NONE', *, *, #127, .F. ) ;
#185 = EDGE_CURVE ( 'NONE', #59, #259, #315, .T. ) ;
#186 = ORIENTED_EDGE ( 'NONE', *, *, #118, .F. ) ;
#187 = APPROVAL ( #139, 'UNSPECIFIED' ) ;
#188 = AXIS2_PLACEMENT_3D ( 'NONE', #174, #13, #221 ) ;
#189 = DIRECTION ( 'NONE',  ( 1.000000000000000000, 0.000000000000000000, 0.000000000000000000 ) ) ;
#190 = LOCAL_TIME ( 17, 1, 50.00000000000000000, #98 ) ;
#191 = EDGE_LOOP ( 'NONE', ( #284, #279 ) ) ;
#192 = FACE_OUTER_BOUND ( 'NONE', #83, .T. ) ;
#193 = CIRCLE ( 'NONE', #188, 6.349999999999999645 ) ;
#194 = COORDINATED_UNIVERSAL_TIME_OFFSET ( 8, 0, .AHEAD. ) ;
#195 = CC_DESIGN_APPROVAL ( #187, ( #27 ) ) ;
#196 = DIRECTION ( 'NONE',  ( 0.000000000000000000, 0.000000000000000000, 1.000000000000000000 ) ) ;
#197 = DIRECTION ( 'NONE',  ( 0.000000000000000000, 0.000000000000000000, 1.000000000000000000 ) ) ;
#198 = CALENDAR_DATE ( 2020, 22, 12 ) ;
#199 = CYLINDRICAL_SURFACE ( 'NONE', #303, 6.349999999999999645 ) ;
#200 = CIRCLE ( 'NONE', #51, 6.349999999999999645 ) ;
#201 = DIRECTION ( 'NONE',  ( -1.000000000000000000, 0.000000000000000000, -0.000000000000000000 ) ) ;
#202 = EDGE_CURVE ( 'NONE', #25, #20, #38, .T. ) ;
#203 = APPLICATION_CONTEXT ( 'configuration controlled 3d designs of mechanical parts and assemblies' ) ;
#204 = DIRECTION ( 'NONE',  ( -1.000000000000000000, -0.000000000000000000, -0.000000000000000000 ) ) ;
#205 = AXIS2_PLACEMENT_3D ( 'NONE', #41, #294, #177 ) ;
#206 = CARTESIAN_POINT ( 'NONE',  ( -1.614212418857619014, 0.000000000000000000, 6.349999999999999645 ) ) ;
#207 = ADVANCED_FACE ( 'NONE', ( #323 ), #199, .F. ) ;
#208 = ORIENTED_EDGE ( 'NONE', *, *, #261, .T. ) ;
#209 = CARTESIAN_POINT ( 'NONE',  ( -1.614212418857619014, 0.000000000000000000, 0.000000000000000000 ) ) ;
#210 = CARTESIAN_POINT ( 'NONE',  ( -1.614212418857619014, 7.776507174585692163E-16, -6.349999999999999645 ) ) ;
#211 = AXIS2_PLACEMENT_3D ( 'NONE', #69, #225, #15 ) ;
#212 = APPROVAL_PERSON_ORGANIZATION ( #324, #42, #100 ) ;
#213 = EDGE_CURVE ( 'NONE', #237, #106, #160, .T. ) ;
#214 = DIRECTION ( 'NONE',  ( 0.000000000000000000, 0.000000000000000000, 1.000000000000000000 ) ) ;
#215 = PERSON_AND_ORGANIZATION ( #316, #273 ) ;
#216 = ORIENTED_EDGE ( 'NONE', *, *, #240, .F. ) ;
#217 = DATE_TIME_ROLE ( 'creation_date' ) ;
#218 = ADVANCED_FACE ( 'NONE', ( #9, #223 ), #297, .F. ) ;
#219 = DIRECTION ( 'NONE',  ( -1.000000000000000000, -0.000000000000000000, -0.000000000000000000 ) ) ;
#220 = COORDINATED_UNIVERSAL_TIME_OFFSET ( 8, 0, .AHEAD. ) ;
#221 = DIRECTION ( 'NONE',  ( 0.000000000000000000, 0.000000000000000000, 1.000000000000000000 ) ) ;
#222 = DATE_AND_TIME ( #250, #140 ) ;
#223 = FACE_BOUND ( 'NONE', #84, .T. ) ;
#224 = APPLICATION_CONTEXT ( 'configuration controlled 3d designs of mechanical parts and assemblies' ) ;
#225 = DIRECTION ( 'NONE',  ( -1.000000000000000000, 0.000000000000000000, -0.000000000000000000 ) ) ;
#226 = CIRCLE ( 'NONE', #291, 12.69999999999999929 ) ;
#227 = FACE_OUTER_BOUND ( 'NONE', #191, .T. ) ;
#228 = DIRECTION ( 'NONE',  ( -1.000000000000000000, -0.000000000000000000, -0.000000000000000000 ) ) ;
#229 = CARTESIAN_POINT ( 'NONE',  ( -1.614212418857619014, 0.000000000000000000, 0.000000000000000000 ) ) ;
#230 = CC_DESIGN_PERSON_AND_ORGANIZATION_ASSIGNMENT ( #236, #167, ( #326 ) ) ;
#231 = DIRECTION ( 'NONE',  ( 0.000000000000000000, 0.000000000000000000, -1.000000000000000000 ) ) ;
#232 = ADVANCED_FACE ( 'NONE', ( #115 ), #327, .F. ) ;
#233 = CLOSED_SHELL ( 'NONE', ( #147, #252, #281, #93, #207, #47, #19, #32, #218, #232 ) ) ;
#234 = ORIENTED_EDGE ( 'NONE', *, *, #82, .F. ) ;
#235 = CARTESIAN_POINT ( 'NONE',  ( 3.000000000000000888, 0.000000000000000000, 6.349999999999999645 ) ) ;
#236 = PERSON_AND_ORGANIZATION ( #316, #273 ) ;
#237 = VERTEX_POINT ( 'NONE', #126 ) ;
#238 = CALENDAR_DATE ( 2020, 22, 12 ) ;
#239 = DIRECTION ( 'NONE',  ( 0.000000000000000000, 0.000000000000000000, 1.000000000000000000 ) ) ;
#240 = EDGE_CURVE ( 'NONE', #259, #106, #258, .T. ) ;
#241 = DIRECTION ( 'NONE',  ( -1.000000000000000000, -0.000000000000000000, -0.000000000000000000 ) ) ;
#242 = EDGE_CURVE ( 'NONE', #286, #25, #200, .T. ) ;
#243 = CARTESIAN_POINT ( 'NONE',  ( -3.000000000000000000, 0.000000000000000000, 0.000000000000000000 ) ) ;
#244 = CARTESIAN_POINT ( 'NONE',  ( 1.500000000000000888, 0.000000000000000000, 6.349999999999999645 ) ) ;
#245 = PERSON_AND_ORGANIZATION_ROLE ( 'creator' ) ;
#246 = DIRECTION ( 'NONE',  ( -1.000000000000000000, -0.000000000000000000, -0.000000000000000000 ) ) ;
#247 = CARTESIAN_POINT ( 'NONE',  ( -1.614212418857619014, 0.000000000000000000, 6.349999999999999645 ) ) ;
#248 = CARTESIAN_POINT ( 'NONE',  ( -3.000000000000000000, 0.000000000000000000, 12.69999999999999929 ) ) ;
#249 = DIRECTION ( 'NONE',  ( -1.000000000000000000, -0.000000000000000000, -0.000000000000000000 ) ) ;
#250 = CALENDAR_DATE ( 2020, 22, 12 ) ;
#251 = LOCAL_TIME ( 17, 1, 50.00000000000000000, #89 ) ;
#252 = ADVANCED_FACE ( 'NONE', ( #304 ), #124, .F. ) ;
#253 = CARTESIAN_POINT ( 'NONE',  ( 3.000000000000000000, 1.555301434917138433E-15, -12.69999999999999929 ) ) ;
#254 = ORIENTED_EDGE ( 'NONE', *, *, #242, .T. ) ;
#255 = CYLINDRICAL_SURFACE ( 'NONE', #79, 6.349999999999999645 ) ;
#256 = CC_DESIGN_DATE_AND_TIME_ASSIGNMENT ( #16, #146, ( #61 ) ) ;
#257 = AXIS2_PLACEMENT_3D ( 'NONE', #63, #321, #196 ) ;
#258 = LINE ( 'NONE', #206, #163 ) ;
#259 = VERTEX_POINT ( 'NONE', #75 ) ;
#260 = AXIS2_PLACEMENT_3D ( 'NONE', #97, #219, #197 ) ;
#261 = EDGE_CURVE ( 'NONE', #78, #306, #8, .T. ) ;
#262 = EDGE_LOOP ( 'NONE', ( #53, #128 ) ) ;
#263 = DIRECTION ( 'NONE',  ( 1.000000000000000000, 0.000000000000000000, 0.000000000000000000 ) ) ;
#264 = CARTESIAN_POINT ( 'NONE',  ( -3.000000000000000000, 6.349999999999999645, 0.000000000000000000 ) ) ;
#265 = APPLICATION_PROTOCOL_DEFINITION ( 'international standard', 'config_control_design', 1994, #203 ) ;
#266 = CIRCLE ( 'NONE', #330, 6.349999999999999645 ) ;
#267 = DIRECTION ( 'NONE',  ( 0.000000000000000000, 0.000000000000000000, -1.000000000000000000 ) ) ;
#268 = CARTESIAN_POINT ( 'NONE',  ( 3.000000000000000888, 7.776507174585692163E-16, -6.349999999999999645 ) ) ;
#269 = EDGE_LOOP ( 'NONE', ( #156, #158 ) ) ;
#270 = DIRECTION ( 'NONE',  ( 1.000000000000000000, 0.000000000000000000, 0.000000000000000000 ) ) ;
#271 = CYLINDRICAL_SURFACE ( 'NONE', #205, 12.69999999999999929 ) ;
#272 = APPROVAL_DATE_TIME ( #222, #42 ) ;
#273 = ORGANIZATION ( 'UNSPECIFIED', 'UNSPECIFIED', '' ) ;
#274 = CARTESIAN_POINT ( 'NONE',  ( -2.999999999999999556, 0.000000000000000000, 6.349999999999999645 ) ) ;
#275 = CALENDAR_DATE ( 2020, 22, 12 ) ;
#276 = CARTESIAN_POINT ( 'NONE',  ( -1.614212418857619014, 0.000000000000000000, 0.000000000000000000 ) ) ;
#277 = EDGE_LOOP ( 'NONE', ( #104, #333, #311, #234 ) ) ;
#278 = CC_DESIGN_DATE_AND_TIME_ASSIGNMENT ( #169, #217, ( #27 ) ) ;
#279 = ORIENTED_EDGE ( 'NONE', *, *, #142, .F. ) ;
#280 = VECTOR ( 'NONE', #292, 1000.000000000000000 ) ;
#281 = ADVANCED_FACE ( 'NONE', ( #182 ), #255, .F. ) ;
#282 = ORIENTED_EDGE ( 'NONE', *, *, #202, .F. ) ;
#283 = ORIENTED_EDGE ( 'NONE', *, *, #213, .F. ) ;
#284 = ORIENTED_EDGE ( 'NONE', *, *, #153, .F. ) ;
#285 = LINE ( 'NONE', #318, #280 ) ;
#286 = VERTEX_POINT ( 'NONE', #268 ) ;
#287 = DIRECTION ( 'NONE',  ( 0.000000000000000000, 0.000000000000000000, 1.000000000000000000 ) ) ;
#288 = EDGE_CURVE ( 'NONE', #168, #154, #226, .T. ) ;
#289 = EDGE_LOOP ( 'NONE', ( #86, #184, #161, #50 ) ) ;
#290 = APPROVAL_ROLE ( '' ) ;
#291 = AXIS2_PLACEMENT_3D ( 'NONE', #243, #7, #172 ) ;
#292 = DIRECTION ( 'NONE',  ( -1.000000000000000000, -0.000000000000000000, -0.000000000000000000 ) ) ;
#293 = APPROVAL_STATUS ( 'not_yet_approved' ) ;
#294 = DIRECTION ( 'NONE',  ( -1.000000000000000000, -0.000000000000000000, -0.000000000000000000 ) ) ;
#295 = DIRECTION ( 'NONE',  ( 0.000000000000000000, 0.000000000000000000, 1.000000000000000000 ) ) ;
#296 = EDGE_CURVE ( 'NONE', #286, #49, #35, .T. ) ;
#297 = PLANE ( 'NONE',  #211 ) ;
#298 = CARTESIAN_POINT ( 'NONE',  ( -2.999999999999999556, 0.000000000000000000, 0.000000000000000000 ) ) ;
#299 = EDGE_CURVE ( 'NONE', #59, #237, #29, .T. ) ;
#300 = CARTESIAN_POINT ( 'NONE',  ( 1.500000000000000444, 6.349999999999999645, 0.000000000000000000 ) ) ;
#301 = UNCERTAINTY_MEASURE_WITH_UNIT (LENGTH_MEASURE( 1.000000000000000082E-05 ), #313, 'distance_accuracy_value', 'NONE');
#302 = EDGE_LOOP ( 'NONE', ( #309, #165, #134, #282 ) ) ;
#303 = AXIS2_PLACEMENT_3D ( 'NONE', #276, #66, #295 ) ;
#304 = FACE_OUTER_BOUND ( 'NONE', #308, .T. ) ;
#305 = ADVANCED_BREP_SHAPE_REPRESENTATION ( 'Q-ZDWWP-R24-12.7-1064-SHM', ( #17, #152 ), #91 ) ;
#306 = VERTEX_POINT ( 'NONE', #110 ) ;
#307 = DIRECTION ( 'NONE',  ( 0.000000000000000000, 0.000000000000000000, 1.000000000000000000 ) ) ;
#308 = EDGE_LOOP ( 'NONE', ( #28, #23, #130, #216 ) ) ;
#309 = ORIENTED_EDGE ( 'NONE', *, *, #242, .F. ) ;
#310 = AXIS2_PLACEMENT_3D ( 'NONE', #298, #246, #176 ) ;
#311 = ORIENTED_EDGE ( 'NONE', *, *, #24, .F. ) ;
#312 = CARTESIAN_POINT ( 'NONE',  ( -1.500000000000000444, 0.000000000000000000, 0.000000000000000000 ) ) ;
#313 =( LENGTH_UNIT ( ) NAMED_UNIT ( * ) SI_UNIT ( .MILLI., .METRE. ) );
#314 = CC_DESIGN_PERSON_AND_ORGANIZATION_ASSIGNMENT ( #44, #123, ( #61 ) ) ;
#315 = CIRCLE ( 'NONE', #175, 6.349999999999999645 ) ;
#316 = PERSON ( 'UNSPECIFIED', 'UNSPECIFIED', 'UNSPECIFIED', ('UNSPECIFIED'), ('UNSPECIFIED'), ('UNSPECIFIED') ) ;
#317 = FACE_OUTER_BOUND ( 'NONE', #132, .T. ) ;
#318 = CARTESIAN_POINT ( 'NONE',  ( -1.614212418857619014, 1.555301434917138433E-15, -12.69999999999999929 ) ) ;
#319 = PERSON_AND_ORGANIZATION ( #316, #273 ) ;
#320 = CC_DESIGN_SECURITY_CLASSIFICATION ( #61, ( #114 ) ) ;
#321 = DIRECTION ( 'NONE',  ( -1.000000000000000000, -0.000000000000000000, -0.000000000000000000 ) ) ;
#322 = CARTESIAN_POINT ( 'NONE',  ( 3.000000000000000888, 0.000000000000000000, 0.000000000000000000 ) ) ;
#323 = FACE_OUTER_BOUND ( 'NONE', #289, .T. ) ;
#324 = PERSON_AND_ORGANIZATION ( #316, #273 ) ;
#325 = CC_DESIGN_APPROVAL ( #164, ( #114 ) ) ;
#326 = PRODUCT ( 'Q-ZDWWP-R24-12.7-1064-SHM', 'Q-ZDWWP-R24-12.7-1064-SHM', '', ( #137 ) ) ;
#327 = PLANE ( 'NONE',  #2 ) ;
#328 = DIRECTION ( 'NONE',  ( -1.000000000000000000, -0.000000000000000000, -0.000000000000000000 ) ) ;
#329 = EDGE_LOOP ( 'NONE', ( #186, #283 ) ) ;
#330 = AXIS2_PLACEMENT_3D ( 'NONE', #312, #189, #267 ) ;
#331 = ORIENTED_EDGE ( 'NONE', *, *, #118, .T. ) ;
#332 = CARTESIAN_POINT ( 'NONE',  ( 3.000000000000000888, 0.000000000000000000, 0.000000000000000000 ) ) ;
#333 = ORIENTED_EDGE ( 'NONE', *, *, #57, .T. ) ;
#334 = AXIS2_PLACEMENT_3D ( 'NONE', #138, #34, #214 ) ;
#335 = DIRECTION ( 'NONE',  ( 0.000000000000000000, 0.000000000000000000, 1.000000000000000000 ) ) ;
ENDSEC;
END-ISO-10303-21;
